  0
SECTION
  2
HEADER
  9
$ACADVER
  1
AC1015
  9
$ACADMAINTVER
 70
    20
  9
$DWGCODEPAGE
  3
ANSI_1250
  9
$INSBASE
 10
0.0
 20
0.0
 30
0.0
  9
$EXTMIN
 10
831.9314594659156
 20
438.335129985976
 30
-0.0015258207003583
  9
$EXTMAX
 10
879.5800796379102
 20
499.7191781735969
 30
0.0000000349246037
  9
$LIMMIN
 10
0.0
 20
0.0
  9
$LIMMAX
 10
420.0
 20
297.0
  9
$ORTHOMODE
 70
     0
  9
$REGENMODE
 70
     1
  9
$FILLMODE
 70
     1
  9
$QTEXTMODE
 70
     0
  9
$MIRRTEXT
 70
     0
  9
$LTSCALE
 40
1.0
  9
$ATTMODE
 70
     1
  9
$TEXTSIZE
 40
2.5
  9
$TRACEWID
 40
1.0
  9
$TEXTSTYLE
  7
Standard
  9
$CLAYER
  8
0
  9
$CELTYPE
  6
ByLayer
  9
$CECOLOR
 62
   256
  9
$CELTSCALE
 40
1.0
  9
$DISPSILH
 70
     0
  9
$DIMSCALE
 40
1.0
  9
$DIMASZ
 40
2.5
  9
$DIMEXO
 40
0.625
  9
$DIMDLI
 40
3.75
  9
$DIMRND
 40
0.0
  9
$DIMDLE
 40
0.0
  9
$DIMEXE
 40
1.25
  9
$DIMTP
 40
0.0
  9
$DIMTM
 40
0.0
  9
$DIMTXT
 40
2.5
  9
$DIMCEN
 40
2.5
  9
$DIMTSZ
 40
0.0
  9
$DIMTOL
 70
     0
  9
$DIMLIM
 70
     0
  9
$DIMTIH
 70
     0
  9
$DIMTOH
 70
     0
  9
$DIMSE1
 70
     0
  9
$DIMSE2
 70
     0
  9
$DIMTAD
 70
     1
  9
$DIMZIN
 70
     8
  9
$DIMBLK
  1

  9
$DIMASO
 70
     1
  9
$DIMSHO
 70
     1
  9
$DIMPOST
  1

  9
$DIMAPOST
  1

  9
$DIMALT
 70
     0
  9
$DIMALTD
 70
     3
  9
$DIMALTF
 40
0.03937007874016
  9
$DIMLFAC
 40
1.0
  9
$DIMTOFL
 70
     1
  9
$DIMTVP
 40
0.0
  9
$DIMTIX
 70
     0
  9
$DIMSOXD
 70
     0
  9
$DIMSAH
 70
     0
  9
$DIMBLK1
  1

  9
$DIMBLK2
  1

  9
$DIMSTYLE
  2
ISO-25
  9
$DIMCLRD
 70
     0
  9
$DIMCLRE
 70
     0
  9
$DIMCLRT
 70
     0
  9
$DIMTFAC
 40
1.0
  9
$DIMGAP
 40
0.625
  9
$DIMJUST
 70
     0
  9
$DIMSD1
 70
     0
  9
$DIMSD2
 70
     0
  9
$DIMTOLJ
 70
     0
  9
$DIMTZIN
 70
     8
  9
$DIMALTZ
 70
     0
  9
$DIMALTTZ
 70
     0
  9
$DIMUPT
 70
     0
  9
$DIMDEC
 70
     2
  9
$DIMTDEC
 70
     2
  9
$DIMALTU
 70
     2
  9
$DIMALTTD
 70
     3
  9
$DIMTXSTY
  7
Standard
  9
$DIMAUNIT
 70
     0
  9
$DIMADEC
 70
     0
  9
$DIMALTRND
 40
0.0
  9
$DIMAZIN
 70
     0
  9
$DIMDSEP
 70
    44
  9
$DIMATFIT
 70
     3
  9
$DIMFRAC
 70
     0
  9
$DIMLDRBLK
  1

  9
$DIMLUNIT
 70
     2
  9
$DIMLWD
 70
    -2
  9
$DIMLWE
 70
    -2
  9
$DIMTMOVE
 70
     0
  9
$LUNITS
 70
     2
  9
$LUPREC
 70
     4
  9
$SKETCHINC
 40
1.0
  9
$FILLETRAD
 40
0.0
  9
$AUNITS
 70
     0
  9
$AUPREC
 70
     0
  9
$MENU
  1
.
  9
$ELEVATION
 40
0.0
  9
$PELEVATION
 40
0.0
  9
$THICKNESS
 40
0.0
  9
$LIMCHECK
 70
     0
  9
$CHAMFERA
 40
0.0
  9
$CHAMFERB
 40
0.0
  9
$CHAMFERC
 40
0.0
  9
$CHAMFERD
 40
0.0
  9
$SKPOLY
 70
     0
  9
$TDCREATE
 40
2454423.490560798
  9
$TDUCREATE
 40
2454423.448894132
  9
$TDUPDATE
 40
2454423.492924803
  9
$TDUUPDATE
 40
2454423.451258136
  9
$TDINDWG
 40
0.0023641782
  9
$TDUSRTIMER
 40
0.0023641782
  9
$USRTIMER
 70
     1
  9
$ANGBASE
 50
0.0
  9
$ANGDIR
 70
     0
  9
$PDMODE
 70
     0
  9
$PDSIZE
 40
0.0
  9
$PLINEWID
 40
0.0
  9
$SPLFRAME
 70
     0
  9
$SPLINETYPE
 70
     6
  9
$SPLINESEGS
 70
     8
  9
$HANDSEED
  5
242
  9
$SURFTAB1
 70
     6
  9
$SURFTAB2
 70
     6
  9
$SURFTYPE
 70
     6
  9
$SURFU
 70
     6
  9
$SURFV
 70
     6
  9
$UCSBASE
  2

  9
$UCSNAME
  2

  9
$UCSORG
 10
0.0
 20
0.0
 30
0.0
  9
$UCSXDIR
 10
1.0
 20
0.0
 30
0.0
  9
$UCSYDIR
 10
0.0
 20
1.0
 30
0.0
  9
$UCSORTHOREF
  2

  9
$UCSORTHOVIEW
 70
     0
  9
$UCSORGTOP
 10
0.0
 20
0.0
 30
0.0
  9
$UCSORGBOTTOM
 10
0.0
 20
0.0
 30
0.0
  9
$UCSORGLEFT
 10
0.0
 20
0.0
 30
0.0
  9
$UCSORGRIGHT
 10
0.0
 20
0.0
 30
0.0
  9
$UCSORGFRONT
 10
0.0
 20
0.0
 30
0.0
  9
$UCSORGBACK
 10
0.0
 20
0.0
 30
0.0
  9
$PUCSBASE
  2

  9
$PUCSNAME
  2

  9
$PUCSORG
 10
0.0
 20
0.0
 30
0.0
  9
$PUCSXDIR
 10
1.0
 20
0.0
 30
0.0
  9
$PUCSYDIR
 10
0.0
 20
1.0
 30
0.0
  9
$PUCSORTHOREF
  2

  9
$PUCSORTHOVIEW
 70
     0
  9
$PUCSORGTOP
 10
0.0
 20
0.0
 30
0.0
  9
$PUCSORGBOTTOM
 10
0.0
 20
0.0
 30
0.0
  9
$PUCSORGLEFT
 10
0.0
 20
0.0
 30
0.0
  9
$PUCSORGRIGHT
 10
0.0
 20
0.0
 30
0.0
  9
$PUCSORGFRONT
 10
0.0
 20
0.0
 30
0.0
  9
$PUCSORGBACK
 10
0.0
 20
0.0
 30
0.0
  9
$USERI1
 70
     0
  9
$USERI2
 70
     0
  9
$USERI3
 70
     0
  9
$USERI4
 70
     0
  9
$USERI5
 70
     0
  9
$USERR1
 40
0.0
  9
$USERR2
 40
0.0
  9
$USERR3
 40
0.0
  9
$USERR4
 40
0.0
  9
$USERR5
 40
0.0
  9
$WORLDVIEW
 70
     1
  9
$SHADEDGE
 70
     3
  9
$SHADEDIF
 70
    70
  9
$TILEMODE
 70
     1
  9
$MAXACTVP
 70
    64
  9
$PINSBASE
 10
0.0
 20
0.0
 30
0.0
  9
$PLIMCHECK
 70
     0
  9
$PEXTMIN
 10
0.0
 20
0.0
 30
0.0
  9
$PEXTMAX
 10
0.0
 20
0.0
 30
0.0
  9
$PLIMMIN
 10
0.0
 20
0.0
  9
$PLIMMAX
 10
12.0
 20
9.0
  9
$UNITMODE
 70
     0
  9
$VISRETAIN
 70
     1
  9
$PLINEGEN
 70
     0
  9
$PSLTSCALE
 70
     1
  9
$TREEDEPTH
 70
  3020
  9
$CMLSTYLE
  2
Standard
  9
$CMLJUST
 70
     0
  9
$CMLSCALE
 40
20.0
  9
$PROXYGRAPHICS
 70
     1
  9
$MEASUREMENT
 70
     1
  9
$CELWEIGHT
370
    -1
  9
$ENDCAPS
280
     0
  9
$JOINSTYLE
280
     0
  9
$LWDISPLAY
290
     0
  9
$INSUNITS
 70
     4
  9
$HYPERLINKBASE
  1

  9
$STYLESHEET
  1

  9
$XEDIT
290
     1
  9
$CEPSNTYPE
380
     0
  9
$PSTYLEMODE
290
     1
  9
$FINGERPRINTGUID
  2
{6C860BD7-84F8-4B13-98E4-7EBA89728F0C}
  9
$VERSIONGUID
  2
{5704CE5F-A209-4D0A-AB59-5C0BBD450E26}
  9
$EXTNAMES
290
     1
  9
$PSVPSCALE
 40
0.0
  9
$OLESTARTUP
290
     0
  0
ENDSEC
  0
SECTION
  2
CLASSES
  0
CLASS
  1
ACDBDICTIONARYWDFLT
  2
AcDbDictionaryWithDefault
  3
ObjectDBX Classes
 90
        0
280
     0
281
     0
  0
CLASS
  1
DICTIONARYVAR
  2
AcDbDictionaryVar
  3
ObjectDBX Classes
 90
        0
280
     0
281
     0
  0
CLASS
  1
TABLESTYLE
  2
AcDbTableStyle
  3
ObjectDBX Classes
 90
     2047
280
     0
281
     0
  0
CLASS
  1
SORTENTSTABLE
  2
AcDbSortentsTable
  3
ObjectDBX Classes
 90
        0
280
     0
281
     0
  0
CLASS
  1
ACDBPLACEHOLDER
  2
AcDbPlaceHolder
  3
ObjectDBX Classes
 90
        0
280
     0
281
     0
  0
CLASS
  1
LAYOUT
  2
AcDbLayout
  3
ObjectDBX Classes
 90
        0
280
     0
281
     0
  0
ENDSEC
  0
SECTION
  2
TABLES
  0
TABLE
  2
VPORT
  5
8
330
0
100
AcDbSymbolTable
 70
     4
  0
VPORT
  5
239
330
8
100
AcDbSymbolTableRecord
100
AcDbViewportTableRecord
  2
*Active
 70
     0
 10
0.0
 20
0.0
 11
1.0
 21
1.0
 12
854.8589040561651
 22
469.8705942707422
 13
0.0
 23
0.0
 14
10.0
 24
10.0
 15
10.0
 25
10.0
 16
0.0
 26
0.0
 36
1.0
 17
0.0
 27
0.0
 37
0.0
 40
79.21397866180678
 41
1.518238993710691
 42
50.0
 43
0.0
 44
0.0
 50
0.0
 51
0.0
 71
     0
 72
  1000
 73
     1
 74
     3
 75
     0
 76
     0
 77
     0
 78
     0
281
     0
 65
     1
110
0.0
120
0.0
130
0.0
111
1.0
121
0.0
131
0.0
112
0.0
122
1.0
132
0.0
 79
     0
146
0.0
  0
ENDTAB
  0
TABLE
  2
LTYPE
  5
5
330
0
100
AcDbSymbolTable
 70
     1
  0
LTYPE
  5
14
330
5
100
AcDbSymbolTableRecord
100
AcDbLinetypeTableRecord
  2
ByBlock
 70
     0
  3

 72
    65
 73
     0
 40
0.0
  0
LTYPE
  5
15
330
5
100
AcDbSymbolTableRecord
100
AcDbLinetypeTableRecord
  2
ByLayer
 70
     0
  3

 72
    65
 73
     0
 40
0.0
  0
LTYPE
  5
16
330
5
100
AcDbSymbolTableRecord
100
AcDbLinetypeTableRecord
  2
Continuous
 70
     0
  3
Solid line
 72
    65
 73
     0
 40
0.0
  0
ENDTAB
  0
TABLE
  2
LAYER
  5
2
102
{ACAD_XDICTIONARY
360
EF
102
}
330
0
100
AcDbSymbolTable
 70
     1
  0
LAYER
  5
10
330
2
100
AcDbSymbolTableRecord
100
AcDbLayerTableRecord
  2
0
 70
     0
 62
     7
  6
Continuous
370
    -3
390
F
  0
ENDTAB
  0
TABLE
  2
STYLE
  5
3
330
0
100
AcDbSymbolTable
 70
     2
  0
STYLE
  5
11
330
3
100
AcDbSymbolTableRecord
100
AcDbTextStyleTableRecord
  2
Standard
 70
     0
 40
0.0
 41
1.0
 50
0.0
 71
     0
 42
2.5
  3
txt
  4

  0
ENDTAB
  0
TABLE
  2
VIEW
  5
6
330
0
100
AcDbSymbolTable
 70
     0
  0
ENDTAB
  0
TABLE
  2
UCS
  5
7
330
0
100
AcDbSymbolTable
 70
     0
  0
ENDTAB
  0
TABLE
  2
APPID
  5
9
330
0
100
AcDbSymbolTable
 70
     2
  0
APPID
  5
12
330
9
100
AcDbSymbolTableRecord
100
AcDbRegAppTableRecord
  2
ACAD
 70
     0
  0
APPID
  5
9E
330
9
100
AcDbSymbolTableRecord
100
AcDbRegAppTableRecord
  2
ACAD_PSEXT
 70
     0
  0
ENDTAB
  0
TABLE
  2
DIMSTYLE
  5
A
330
0
100
AcDbSymbolTable
 70
     2
100
AcDbDimStyleTable
 71
     1
340
27
  0
DIMSTYLE
105
27
330
A
100
AcDbSymbolTableRecord
100
AcDbDimStyleTableRecord
  2
ISO-25
 70
     0
 41
2.5
 42
0.625
 43
3.75
 44
1.25
 73
     0
 74
     0
 77
     1
 78
     8
140
2.5
141
2.5
143
0.03937007874016
147
0.625
171
     3
172
     1
271
     2
272
     2
274
     3
278
    44
283
     0
284
     8
340
11
  0
ENDTAB
  0
TABLE
  2
BLOCK_RECORD
  5
1
330
0
100
AcDbSymbolTable
 70
     3
  0
BLOCK_RECORD
  5
1F
102
{ACAD_XDICTIONARY
360
21A
102
}
330
1
100
AcDbSymbolTableRecord
100
AcDbBlockTableRecord
  2
*Model_Space
340
22
  0
BLOCK_RECORD
  5
D2
330
1
100
AcDbSymbolTableRecord
100
AcDbBlockTableRecord
  2
*Paper_Space
340
D3
  0
BLOCK_RECORD
  5
D6
330
1
100
AcDbSymbolTableRecord
100
AcDbBlockTableRecord
  2
*Paper_Space0
340
D7
  0
ENDTAB
  0
ENDSEC
  0
SECTION
  2
BLOCKS
  0
BLOCK
  5
20
330
1F
100
AcDbEntity
  8
0
100
AcDbBlockBegin
  2
*Model_Space
 70
     0
 10
0.0
 20
0.0
 30
0.0
  3
*Model_Space
  1

  0
ENDBLK
  5
21
330
1F
100
AcDbEntity
  8
0
100
AcDbBlockEnd
  0
BLOCK
  5
D4
330
D2
100
AcDbEntity
 67
     1
  8
0
100
AcDbBlockBegin
  2
*Paper_Space
 70
     0
 10
0.0
 20
0.0
 30
0.0
  3
*Paper_Space
  1

  0
ENDBLK
  5
D5
330
D2
100
AcDbEntity
 67
     1
  8
0
100
AcDbBlockEnd
  0
BLOCK
  5
D8
330
D6
100
AcDbEntity
  8
0
100
AcDbBlockBegin
  2
*Paper_Space0
 70
     0
 10
0.0
 20
0.0
 30
0.0
  3
*Paper_Space0
  1

  0
ENDBLK
  5
D9
330
D6
100
AcDbEntity
  8
0
100
AcDbBlockEnd
  0
ENDSEC
  0
SECTION
  2
ENTITIES
  0
MTEXT
  5
163
330
1F
100
AcDbEntity
  8
0
370
    13
100
AcDbMText
 10
857.067889926559
 20
497.5084262388345
 30
0.0
 40
2.5
 41
27.9800000000007
 71
     5
 72
     5
  1
{\fTahoma|b0|i0|c238|p34;1:500}
 73
     1
 44
1.0
1001
ACAD
1000
MTEXTBEGIN
1070
    73
1070
     1
1070
    44
1040
1.0
1070
    74
1070
     0
1000
MTEXTEND
  0
LINE
  5
164
330
1F
100
AcDbEntity
  8
0
 48
4.0
370
    13
100
AcDbLine
 10
839.3022220333731
 20
481.4043846178886
 30
0.0
 11
839.3022220333731
 21
485.5367709864109
 31
0.0
  0
LINE
  5
165
330
1F
100
AcDbEntity
  8
0
 48
4.0
370
    13
100
AcDbLine
 10
850.9022220333733
 20
480.7084793947187
 30
0.0
 11
850.9022220333733
 21
485.5367709864109
 31
0.0
  0
LWPOLYLINE
  5
166
102
{ACAD_REACTORS
330
219
102
}
330
1F
100
AcDbEntity
  8
0
 48
5.0
370
    13
100
AcDbPolyline
 90
        4
 70
     1
 43
0.0
 10
839.8022220333732
 20
485.0873560508241
 10
840.2022220333732
 20
485.0873560508241
 10
840.2022220333732
 20
485.4873560508242
 10
839.8022220333732
 20
485.4873560508242
  0
ARC
  5
167
330
1F
100
AcDbEntity
  8
0
 48
4.0
370
    13
100
AcDbCircle
 10
845.1022220333731
 20
485.5367709864109
 30
0.0
 40
5.800000000000009
100
AcDbArc
 50
0.0
 51
180.0
  0
LINE
  5
168
330
1F
100
AcDbEntity
  8
0
 48
4.0
370
    13
100
AcDbLine
 10
866.2022220333732
 20
438.3484793947187
 30
0.0
 11
876.9622220333731
 21
438.3484793947187
 31
0.0
  0
LINE
  5
169
330
1F
100
AcDbEntity
  8
0
 48
4.0
370
    13
100
AcDbLine
 10
848.3022220333731
 20
452.7484793947187
 30
0.0
 11
848.3022220333731
 21
451.7484793947186
 31
0.0
  0
LINE
  5
16A
330
1F
100
AcDbEntity
  8
0
 48
4.0
370
    13
100
AcDbLine
 10
845.8708581086508
 20
451.7484793947186
 30
0.0
 11
845.8708581086508
 21
453.3484793947187
 31
0.0
  0
LINE
  5
16B
330
1F
100
AcDbEntity
  8
0
 48
4.0
370
    13
100
AcDbLine
 10
848.3022220333731
 20
451.7484793947186
 30
0.0
 11
845.8708581086508
 21
451.7484793947186
 31
0.0
  0
LWPOLYLINE
  5
16C
330
1F
100
AcDbEntity
  8
0
 48
4.0
370
    13
100
AcDbPolyline
 90
        4
 70
     1
 43
0.0
 10
848.3022220333731
 20
453.3484793947187
 10
845.8708581086508
 20
453.3484793947187
 10
845.8708581086508
 20
451.7484793947186
 10
848.3022220333731
 20
451.7484793947186
  0
LWPOLYLINE
  5
16D
330
1F
100
AcDbEntity
  8
0
 48
4.0
370
    13
100
AcDbPolyline
 90
        4
 70
     1
 43
0.0
 10
848.0622220333732
 20
453.1084793947186
 10
846.1108581086508
 20
453.1084793947186
 10
846.1108581086508
 20
451.9884793947187
 10
848.0622220333732
 20
451.9884793947187
  0
LWPOLYLINE
  5
16E
330
1F
100
AcDbEntity
  8
0
 48
4.0
370
    13
100
AcDbPolyline
 90
        4
 70
     1
 43
0.0
 10
856.1335859580955
 20
449.7484793947187
 10
853.7022220333732
 20
449.7484793947187
 10
853.7022220333732
 20
448.1484793947187
 10
856.1335859580955
 20
448.1484793947187
  0
LWPOLYLINE
  5
16F
330
1F
100
AcDbEntity
  8
0
 48
4.0
370
    13
100
AcDbPolyline
 90
        4
 70
     1
 43
0.0
 10
855.8935859580955
 20
449.5084793947186
 10
853.9422220333731
 20
449.5084793947186
 10
853.9422220333731
 20
448.3884793947186
 10
855.8935859580955
 20
448.3884793947186
  0
ARC
  5
170
330
1F
100
AcDbEntity
  8
0
 48
4.0
370
    13
100
AcDbCircle
 10
854.8342952904507
 20
449.7849769496597
 30
0.0
 40
9.175976676290359
100
AcDbArc
 50
167.6441346586665
 51
195.7041449203934
  0
ARC
  5
171
330
1F
100
AcDbEntity
  8
0
 48
4.0
370
    13
100
AcDbCircle
 10
852.6145651237641
 20
450.6047726404466
 30
0.0
 40
5.634525140244746
100
AcDbArc
 50
168.2886117498791
 51
200.245259466496
  0
ARC
  5
172
330
1F
100
AcDbEntity
  8
0
 48
4.0
370
    13
100
AcDbCircle
 10
848.389841240057
 20
451.6630420322154
 30
0.0
 40
6.369736276022948
100
AcDbArc
 50
264.1432552783341
 51
326.5121925944823
  0
ARC
  5
173
330
1F
100
AcDbEntity
  8
0
 48
4.0
370
    13
100
AcDbCircle
 10
848.3475371388406
 20
454.9786997863495
 30
0.0
 40
7.769886890917185
100
AcDbArc
 50
274.2135115991685
 51
313.5635469382961
  0
LINE
  5
174
330
1F
100
AcDbEntity
  8
0
 48
4.0
370
    13
100
AcDbLine
 10
876.9622220333735
 20
443.4484793947187
 30
0.0
 11
876.9622220333733
 21
444.3484793947186
 31
0.0
  0
LINE
  5
175
330
1F
100
AcDbEntity
  8
0
 48
4.0
370
    13
100
AcDbLine
 10
878.1622220333733
 20
444.2484793947187
 30
0.0
 11
878.1622220333732
 21
445.4484793947186
 31
0.0
  0
LINE
  5
176
330
1F
100
AcDbEntity
  8
0
 48
4.0
370
    13
100
AcDbLine
 10
878.9622220333731
 20
445.4484793947186
 30
0.0
 11
878.0622220333732
 21
445.4484793947186
 31
0.0
  0
LINE
  5
177
330
1F
100
AcDbEntity
  8
0
 48
4.0
370
    13
100
AcDbLine
 10
878.1622220333733
 20
444.2484793947187
 30
0.0
 11
876.9622220333733
 21
444.2484793947187
 31
0.0
  0
LINE
  5
178
330
1F
100
AcDbEntity
  8
0
 48
4.0
370
    13
100
AcDbLine
 10
878.9622220333734
 20
443.4484793947187
 30
0.0
 11
878.9622220333731
 21
445.4484793947186
 31
0.0
  0
LINE
  5
179
330
1F
100
AcDbEntity
  8
0
 48
4.0
370
    13
100
AcDbLine
 10
878.9622220333734
 20
443.4484793947187
 30
0.0
 11
876.9622220333735
 21
443.4484793947187
 31
0.0
  0
LINE
  5
17A
330
1F
100
AcDbEntity
  8
0
 48
4.0
370
    13
100
AcDbLine
 10
878.1622220333733
 20
444.2484793947187
 30
0.0
 11
878.9622220333734
 21
443.4484793947187
 31
0.0
  0
LINE
  5
17B
330
1F
100
AcDbEntity
  8
0
 48
4.0
370
    13
100
AcDbLine
 10
866.202222033373
 20
443.4484793947187
 30
0.0
 11
866.2022220333732
 21
444.3484793947186
 31
0.0
  0
LINE
  5
17C
330
1F
100
AcDbEntity
  8
0
 48
4.0
370
    13
100
AcDbLine
 10
865.0022220333731
 20
444.2484793947187
 30
0.0
 11
865.0022220333731
 21
445.4484793947186
 31
0.0
  0
LINE
  5
17D
330
1F
100
AcDbEntity
  8
0
 48
4.0
370
    13
100
AcDbLine
 10
864.2022220333734
 20
445.4484793947186
 30
0.0
 11
865.1022220333732
 21
445.4484793947186
 31
0.0
  0
LINE
  5
17E
330
1F
100
AcDbEntity
  8
0
 48
4.0
370
    13
100
AcDbLine
 10
865.0022220333731
 20
444.2484793947187
 30
0.0
 11
866.2022220333732
 21
444.2484793947187
 31
0.0
  0
LINE
  5
17F
330
1F
100
AcDbEntity
  8
0
 48
4.0
370
    13
100
AcDbLine
 10
864.202222033373
 20
443.4484793947187
 30
0.0
 11
864.2022220333734
 21
445.4484793947186
 31
0.0
  0
LINE
  5
180
330
1F
100
AcDbEntity
  8
0
 48
4.0
370
    13
100
AcDbLine
 10
864.202222033373
 20
443.4484793947187
 30
0.0
 11
866.202222033373
 21
443.4484793947187
 31
0.0
  0
LINE
  5
181
330
1F
100
AcDbEntity
  8
0
 48
4.0
370
    13
100
AcDbLine
 10
865.0022220333731
 20
444.2484793947187
 30
0.0
 11
864.202222033373
 21
443.4484793947187
 31
0.0
  0
LINE
  5
182
330
1F
100
AcDbEntity
  8
0
 48
4.0
370
    13
100
AcDbLine
 10
866.2022220333732
 20
444.3484793947186
 30
0.0
 11
866.2022220333732
 21
438.3484793947187
 31
0.0
  0
LINE
  5
183
330
1F
100
AcDbEntity
  8
0
 48
4.0
370
    13
100
AcDbLine
 10
876.9622220333733
 20
444.3484793947186
 30
0.0
 11
876.9622220333731
 21
438.3484793947187
 31
0.0
  0
LINE
  5
184
102
{ACAD_REACTORS
330
219
102
}
330
1F
100
AcDbEntity
  8
0
 48
4.0
370
    13
100
AcDbLine
 10
876.9622220333731
 20
438.3484793947187
 30
0.0
 11
871.5822220333732
 21
444.6534793947189
 31
0.0
  0
LINE
  5
185
330
1F
100
AcDbEntity
  8
0
 48
4.0
370
    13
100
AcDbLine
 10
837.402222033373
 20
452.4484793947187
 30
0.0
 11
837.4022220333733
 21
453.3484793947187
 31
0.0
  0
LINE
  5
186
330
1F
100
AcDbEntity
  8
0
 48
4.0
370
    13
100
AcDbLine
 10
836.2022220333733
 20
453.2484793947187
 30
0.0
 11
836.2022220333733
 21
454.4484793947187
 31
0.0
  0
LINE
  5
187
330
1F
100
AcDbEntity
  8
0
 48
4.0
370
    13
100
AcDbLine
 10
835.4022220333733
 20
454.4484793947187
 30
0.0
 11
836.3022220333732
 21
454.4484793947187
 31
0.0
  0
LINE
  5
188
330
1F
100
AcDbEntity
  8
0
 48
4.0
370
    13
100
AcDbLine
 10
836.2022220333733
 20
453.2484793947187
 30
0.0
 11
837.4022220333733
 21
453.2484793947187
 31
0.0
  0
LINE
  5
189
330
1F
100
AcDbEntity
  8
0
 48
4.0
370
    13
100
AcDbLine
 10
835.4022220333732
 20
452.4484793947187
 30
0.0
 11
835.4022220333733
 21
454.4484793947187
 31
0.0
  0
LINE
  5
18A
330
1F
100
AcDbEntity
  8
0
 48
4.0
370
    13
100
AcDbLine
 10
835.4022220333732
 20
452.4484793947187
 30
0.0
 11
837.402222033373
 21
452.4484793947187
 31
0.0
  0
LINE
  5
18B
330
1F
100
AcDbEntity
  8
0
 48
4.0
370
    13
100
AcDbLine
 10
836.2022220333733
 20
453.2484793947187
 30
0.0
 11
835.4022220333732
 21
452.4484793947187
 31
0.0
  0
LINE
  5
18C
330
1F
100
AcDbEntity
  8
0
 48
4.0
370
    13
100
AcDbLine
 10
876.9622220333735
 20
461.8084793947186
 30
0.0
 11
876.9622220333733
 21
460.9084793947186
 31
0.0
  0
LINE
  5
18D
330
1F
100
AcDbEntity
  8
0
 48
4.0
370
    13
100
AcDbLine
 10
878.1622220333733
 20
461.0084793947186
 30
0.0
 11
878.1622220333732
 21
459.8084793947187
 31
0.0
  0
LINE
  5
18E
330
1F
100
AcDbEntity
  8
0
 48
4.0
370
    13
100
AcDbLine
 10
878.9622220333731
 20
459.8084793947187
 30
0.0
 11
878.0622220333732
 21
459.8084793947187
 31
0.0
  0
LINE
  5
18F
330
1F
100
AcDbEntity
  8
0
 48
4.0
370
    13
100
AcDbLine
 10
878.1622220333733
 20
461.0084793947186
 30
0.0
 11
876.9622220333733
 21
461.0084793947186
 31
0.0
  0
LINE
  5
190
330
1F
100
AcDbEntity
  8
0
 48
4.0
370
    13
100
AcDbLine
 10
878.9622220333734
 20
461.8084793947186
 30
0.0
 11
878.9622220333731
 21
459.8084793947187
 31
0.0
  0
LINE
  5
191
330
1F
100
AcDbEntity
  8
0
 48
4.0
370
    13
100
AcDbLine
 10
878.1622220333733
 20
461.0084793947186
 30
0.0
 11
878.9622220333734
 21
461.8084793947186
 31
0.0
  0
LINE
  5
192
330
1F
100
AcDbEntity
  8
0
 48
4.0
370
    13
100
AcDbLine
 10
864.9622220333734
 20
481.6084793947187
 30
0.0
 11
864.9622220333732
 21
480.7084793947187
 31
0.0
  0
LINE
  5
193
330
1F
100
AcDbEntity
  8
0
 48
4.0
370
    13
100
AcDbLine
 10
866.1622220333732
 20
480.8084793947187
 30
0.0
 11
866.1622220333732
 21
479.6084793947187
 31
0.0
  0
LINE
  5
194
330
1F
100
AcDbEntity
  8
0
 48
4.0
370
    13
100
AcDbLine
 10
866.9622220333732
 20
479.6084793947187
 30
0.0
 11
866.0622220333733
 21
479.6084793947187
 31
0.0
  0
LINE
  5
195
330
1F
100
AcDbEntity
  8
0
 48
4.0
370
    13
100
AcDbLine
 10
866.1622220333732
 20
480.8084793947187
 30
0.0
 11
864.9622220333732
 21
480.8084793947187
 31
0.0
  0
LINE
  5
196
330
1F
100
AcDbEntity
  8
0
 48
4.0
370
    13
100
AcDbLine
 10
866.9622220333733
 20
481.6084793947188
 30
0.0
 11
866.9622220333732
 21
479.6084793947187
 31
0.0
  0
LINE
  5
197
330
1F
100
AcDbEntity
  8
0
 48
4.0
370
    13
100
AcDbLine
 10
866.9622220333733
 20
481.6084793947188
 30
0.0
 11
864.9622220333734
 21
481.6084793947187
 31
0.0
  0
LINE
  5
198
330
1F
100
AcDbEntity
  8
0
 48
4.0
370
    13
100
AcDbLine
 10
866.1622220333732
 20
480.8084793947187
 30
0.0
 11
866.9622220333733
 21
481.6084793947188
 31
0.0
  0
LWPOLYLINE
  5
199
102
{ACAD_REACTORS
330
219
102
}
330
1F
100
AcDbEntity
  8
0
 48
5.0
370
    13
100
AcDbPolyline
 90
        4
 70
     1
 43
0.0
 10
862.5027035655877
 20
441.4634434706094
 10
862.9027035655878
 20
441.4634434706094
 10
862.9027035655878
 20
441.8634434706095
 10
862.5027035655877
 20
441.8634434706095
  0
LINE
  5
19A
102
{ACAD_REACTORS
330
219
102
}
330
1F
100
AcDbEntity
  8
0
 48
4.0
370
    13
100
AcDbLine
 10
866.2022220333732
 20
438.3484793947187
 30
0.0
 11
871.5822220333732
 21
444.6534793947189
 31
0.0
  0
LINE
  5
19B
330
1F
100
AcDbEntity
  8
0
 48
4.0
370
    13
100
AcDbLine
 10
836.3022220333732
 20
471.6679112836378
 30
0.0
 11
831.9622220333732
 21
471.6679112836378
 31
0.0
  0
LINE
  5
19C
330
1F
100
AcDbEntity
  8
0
 48
4.0
370
    13
100
AcDbLine
 10
831.9622220333732
 20
471.6679112836378
 30
0.0
 11
831.9622220333732
 21
481.3443846178883
 31
0.0
  0
LINE
  5
19D
330
1F
100
AcDbEntity
  8
0
 48
4.0
370
    13
100
AcDbLine
 10
837.3022220333732
 20
480.8643846178884
 30
0.0
 11
837.3022220333732
 21
481.3443846178883
 31
0.0
  0
LINE
  5
19E
330
1F
100
AcDbEntity
  8
0
 48
4.0
370
    13
100
AcDbLine
 10
832.4422220333731
 20
476.8084793947184
 30
0.0
 11
831.9622220333732
 21
476.8084793947184
 31
0.0
  0
LWPOLYLINE
  5
19F
102
{ACAD_REACTORS
330
219
102
}
330
1F
100
AcDbEntity
  8
0
 48
5.0
370
    13
100
AcDbPolyline
 90
        4
 70
     1
 43
0.0
 10
832.0022220333731
 20
471.707911283638
 10
832.4022220333731
 20
471.707911283638
 10
832.4022220333731
 20
472.1079112836379
 10
832.0022220333731
 20
472.1079112836379
  0
LWPOLYLINE
  5
1A0
102
{ACAD_REACTORS
330
219
102
}
330
1F
100
AcDbEntity
  8
0
 48
5.0
370
    13
100
AcDbPolyline
 90
        4
 70
     1
 43
0.0
 10
832.0022220333731
 20
480.9043846178886
 10
832.4022220333731
 20
480.9043846178886
 10
832.4022220333731
 20
481.3043846178886
 10
832.0022220333731
 20
481.3043846178886
  0
LWPOLYLINE
  5
1A1
102
{ACAD_REACTORS
330
219
102
}
330
1F
100
AcDbEntity
  8
0
 48
5.0
370
    13
100
AcDbPolyline
 90
        4
 70
     1
 43
0.0
 10
839.802222033373
 20
480.9043846178884
 10
840.202222033373
 20
480.9043846178884
 10
840.202222033373
 20
481.3043846178884
 10
839.802222033373
 20
481.3043846178884
  0
LWPOLYLINE
  5
1A2
102
{ACAD_REACTORS
330
219
102
}
330
1F
100
AcDbEntity
  8
0
 48
5.0
370
    13
100
AcDbPolyline
 90
        4
 70
     1
 43
0.0
 10
836.002222033373
 20
472.1079112836378
 10
836.0022220333732
 20
471.7079112836378
 10
835.6022220333732
 20
471.7079112836377
 10
835.6022220333729
 20
472.1079112836377
  0
LWPOLYLINE
  5
1A3
102
{ACAD_REACTORS
330
219
102
}
330
1F
100
AcDbEntity
  8
0
 48
5.0
370
    13
100
AcDbPolyline
 90
        4
 70
     1
 43
0.0
 10
839.7491164701477
 20
475.80847939472
 10
840.1491164701477
 20
475.8084793947199
 10
840.1491164701477
 20
476.20847939472
 10
839.7491164701477
 20
476.20847939472
  0
LINE
  5
1A4
330
1F
100
AcDbEntity
  8
0
 48
4.0
370
    13
100
AcDbLine
 10
836.3022220333732
 20
471.2000343230051
 30
0.0
 11
836.3022220333732
 21
472.1479112836378
 31
0.0
  0
LWPOLYLINE
  5
1A5
102
{ACAD_REACTORS
330
219
102
}
330
1F
100
AcDbEntity
  8
0
 48
5.0
370
    13
100
AcDbPolyline
 90
        4
 70
     1
 43
0.0
 10
867.7822220333732
 20
480.0284793947186
 10
868.1822220333732
 20
480.0284793947186
 10
868.1822220333732
 20
480.4284793947187
 10
867.7822220333732
 20
480.4284793947187
  0
LWPOLYLINE
  5
1A6
102
{ACAD_REACTORS
330
219
102
}
330
1F
100
AcDbEntity
  8
0
 48
5.0
370
    13
100
AcDbPolyline
 90
        4
 70
     1
 43
0.0
 10
867.7822220333732
 20
474.0484793947187
 10
868.1822220333732
 20
474.0484793947187
 10
868.1822220333732
 20
474.4484793947187
 10
867.7822220333732
 20
474.4484793947187
  0
LINE
  5
1A7
330
1F
100
AcDbEntity
  8
0
 48
4.0
370
    13
100
AcDbLine
 10
847.823107500408
 20
447.9877787266285
 30
0.0
 11
848.3012626833113
 21
448.8795344869259
 31
0.0
  0
LINE
  5
1A8
330
1F
100
AcDbEntity
  8
0
 48
4.0
370
    13
100
AcDbLine
 10
847.4705861096271
 20
448.1767990140107
 30
0.0
 11
847.8231075004078
 21
447.9877787266285
 31
0.0
  0
LWPOLYLINE
  5
1A9
330
1F
100
AcDbEntity
  8
0
 48
4.0
370
    13
100
AcDbPolyline
 90
        9
 70
     0
 43
0.0
 10
848.2641773394743
 20
448.8103706042121
 10
848.6818380581675
 20
448.2440503142681
 10
848.8686991879351
 20
446.5176971719561
 10
847.6853581348725
 20
445.269041190222
 10
847.2816171062003
 20
445.3142782646716
 10
846.1002858121471
 20
445.9047101530448
 10
845.9606098459811
 20
446.9210588539115
 10
846.0762877546237
 20
448.0145034496501
 10
847.8777880068829
 20
448.9362274390604
  0
LINE
  5
1AA
330
1F
100
AcDbEntity
  8
0
 48
4.0
370
    13
100
AcDbLine
 10
848.8013203557182
 20
450.6586082086132
 30
0.0
 11
849.1538417464989
 21
450.469587921231
 31
0.0
  0
LINE
  5
1AB
330
1F
100
AcDbEntity
  8
0
 48
4.0
370
    13
100
AcDbLine
 10
848.8013203557182
 20
450.6586082086132
 30
0.0
 11
847.4705861096271
 21
448.1767990140107
 31
0.0
  0
LINE
  5
1AC
330
1F
100
AcDbEntity
  8
0
 48
4.0
370
    13
100
AcDbLine
 10
849.1538417464989
 20
450.469587921231
 30
0.0
 11
848.0121277877902
 21
448.3403001174092
 31
0.0
  0
LINE
  5
1AD
330
1F
100
AcDbEntity
  8
0
 48
4.0
370
    13
100
AcDbLine
 10
874.1622220333734
 20
479.5084793947187
 30
0.0
 11
874.1622220333734
 21
480.7084793947187
 31
0.0
  0
LINE
  5
1AE
330
1F
100
AcDbEntity
  8
0
 48
4.0
370
    13
100
AcDbLine
 10
870.1622220333732
 20
479.5084793947187
 30
0.0
 11
870.1622220333733
 21
480.7084793947187
 31
0.0
  0
ARC
  5
1AF
330
1F
100
AcDbEntity
  8
0
 48
4.0
370
    13
100
AcDbCircle
 10
838.2977210338356
 20
459.25193889853
 30
0.0
 40
41.18968153335948
100
AcDbArc
 50
9.159257194552614
 51
29.45808867523023
  0
LINE
  5
1B0
330
1F
100
AcDbEntity
  8
0
 48
4.0
370
    13
100
AcDbLine
 10
870.1622220333733
 20
479.5084793947187
 30
0.0
 11
870.1622220333733
 21
480.7084793947186
 31
0.0
  0
LINE
  5
1B1
330
1F
100
AcDbEntity
  8
0
 48
4.0
370
    13
100
AcDbLine
 10
866.0622220333733
 20
480.7084793947186
 30
0.0
 11
874.1622220333733
 21
480.7084793947186
 31
0.0
  0
ARC
  5
1B2
330
1F
100
AcDbEntity
  8
0
 48
4.0
370
    13
100
AcDbCircle
 10
850.5449685541002
 20
465.3610754199545
 30
0.0
 40
26.42104183609745
100
AcDbArc
 50
0.9702715323292595
 51
26.63500927424168
  0
LINE
  5
1B3
330
1F
100
AcDbEntity
  8
0
 48
4.0
370
    13
100
AcDbLine
 10
874.1622220333734
 20
479.5084793947187
 30
0.0
 11
870.1622220333733
 21
479.5084793947187
 31
0.0
  0
LINE
  5
1B4
330
1F
100
AcDbEntity
  8
0
 48
4.0
370
    13
100
AcDbLine
 10
874.1622220333734
 20
479.5084793947187
 30
0.0
 11
874.1622220333734
 21
477.2057700044751
 31
0.0
  0
CIRCLE
  5
1B5
330
1F
100
AcDbEntity
  8
0
 48
4.0
370
    13
100
AcDbCircle
 10
845.1022220333731
 20
486.3124584362148
 30
0.0
 40
2.0
  0
CIRCLE
  5
1B6
330
1F
100
AcDbEntity
  8
0
 48
4.0
370
    13
100
AcDbCircle
 10
845.1022220333731
 20
486.3124584362148
 30
0.0
 40
1.759999999999999
  0
LINE
  5
1B7
330
1F
100
AcDbEntity
  8
0
 48
4.0
370
    13
100
AcDbLine
 10
870.1622220333732
 20
479.5084793947187
 30
0.0
 11
874.1622220333733
 21
479.5084793947187
 31
0.0
  0
LINE
  5
1B8
330
1F
100
AcDbEntity
  8
0
 48
4.0
370
    13
100
AcDbLine
 10
878.9622220333734
 20
461.8084793947186
 30
0.0
 11
876.9622220333735
 21
461.8084793947191
 31
0.0
  0
LINE
  5
1B9
330
1F
100
AcDbEntity
  8
0
 48
4.0
370
    13
100
AcDbLine
 10
877.7622220333734
 20
461.8084793947186
 30
0.0
 11
877.7622220333734
 21
465.8084793947186
 31
0.0
  0
LINE
  5
1BA
330
1F
100
AcDbEntity
  8
0
 48
4.0
370
    13
100
AcDbLine
 10
878.9622220333734
 20
461.8084793947186
 30
0.0
 11
878.9622220333734
 21
465.8084793947186
 31
0.0
  0
LINE
  5
1BB
330
1F
100
AcDbEntity
  8
0
 48
4.0
370
    13
100
AcDbLine
 10
878.9622220333734
 20
465.8084793947186
 30
0.0
 11
876.9622220333735
 21
465.8084793947186
 31
0.0
  0
LINE
  5
1BC
330
1F
100
AcDbEntity
  8
0
 48
4.0
370
    13
100
AcDbLine
 10
874.2928708575741
 20
476.941601655384
 30
0.0
 11
874.8389040559228
 21
478.2606686868644
 31
0.0
  0
LWPOLYLINE
  5
1BD
330
1F
100
AcDbEntity
  8
0
 48
4.0
370
    13
100
AcDbPolyline
 90
        4
 70
     1
 43
0.0
 10
839.7091164701478
 20
476.24847939472
 10
840.1891164701478
 20
476.24847939472
 10
840.1891164701478
 20
475.7684793947199
 10
839.7091164701478
 20
475.7684793947199
  0
LWPOLYLINE
  5
1BE
330
1F
100
AcDbEntity
  8
0
 48
4.0
370
    13
100
AcDbPolyline
 90
        4
 70
     1
 43
0.0
 10
835.562222033373
 20
472.1479112836378
 10
836.0422220333729
 20
472.1479112836378
 10
836.0422220333729
 20
471.6679112836378
 10
835.562222033373
 20
471.6679112836378
  0
LWPOLYLINE
  5
1BF
330
1F
100
AcDbEntity
  8
0
 48
4.0
370
    13
100
AcDbPolyline
 90
        4
 70
     1
 43
0.0
 10
831.9622220333732
 20
472.1479112836379
 10
832.4422220333731
 20
472.1479112836379
 10
832.4422220333731
 20
471.667911283638
 10
831.9622220333732
 20
471.667911283638
  0
LWPOLYLINE
  5
1C0
330
1F
100
AcDbEntity
  8
0
 48
4.0
370
    13
100
AcDbPolyline
 90
        4
 70
     1
 43
0.0
 10
839.7622220333731
 20
481.3443846178883
 10
840.2422220333731
 20
481.3443846178883
 10
840.2422220333731
 20
480.8643846178884
 10
839.7622220333731
 20
480.8643846178884
  0
LWPOLYLINE
  5
1C1
330
1F
100
AcDbEntity
  8
0
 48
4.0
370
    13
100
AcDbPolyline
 90
        4
 70
     1
 43
0.0
 10
831.9622220333732
 20
481.3443846178887
 10
832.4422220333731
 20
481.3443846178887
 10
832.4422220333731
 20
480.8643846178886
 10
831.9622220333732
 20
480.8643846178886
  0
LWPOLYLINE
  5
1C2
330
1F
100
AcDbEntity
  8
0
 48
4.0
370
    13
100
AcDbPolyline
 90
        4
 70
     1
 43
0.0
 10
839.7622220333731
 20
485.5273560508241
 10
840.2422220333731
 20
485.5273560508241
 10
840.2422220333731
 20
485.0473560508241
 10
839.7622220333731
 20
485.0473560508241
  0
LWPOLYLINE
  5
1C3
330
1F
100
AcDbEntity
  8
0
 48
4.0
370
    13
100
AcDbPolyline
 90
        4
 70
     1
 43
0.0
 10
867.7422220333733
 20
480.4684793947187
 10
868.2222220333732
 20
480.4684793947187
 10
868.2222220333732
 20
479.9884793947186
 10
867.7422220333733
 20
479.9884793947186
  0
LWPOLYLINE
  5
1C4
330
1F
100
AcDbEntity
  8
0
 48
4.0
370
    13
100
AcDbPolyline
 90
        4
 70
     1
 43
0.0
 10
867.7422220333733
 20
474.4884793947187
 10
868.2222220333732
 20
474.4884793947187
 10
868.2222220333732
 20
474.0084793947187
 10
867.7422220333733
 20
474.0084793947187
  0
LWPOLYLINE
  5
1C5
330
1F
100
AcDbEntity
  8
0
 48
4.0
370
    13
100
AcDbPolyline
 90
        4
 70
     1
 43
0.0
 10
862.4627035655878
 20
441.9034434706095
 10
862.9427035655877
 20
441.9034434706095
 10
862.9427035655877
 20
441.4234434706094
 10
862.4627035655878
 20
441.4234434706094
  0
LINE
  5
1C6
330
1F
100
AcDbEntity
  8
0
 48
4.0
370
    13
100
AcDbLine
 10
832.4422220333731
 20
472.1479112836379
 30
0.0
 11
835.562222033373
 21
472.1479112836379
 31
0.0
  0
LINE
  5
1C7
330
1F
100
AcDbEntity
  8
0
 48
4.0
370
    13
100
AcDbLine
 10
836.0422220333729
 20
472.1479112836378
 30
0.0
 11
836.3022220333732
 21
472.1479112836378
 31
0.0
  0
LINE
  5
1C8
330
1F
100
AcDbEntity
  8
0
 48
4.0
370
    13
100
AcDbLine
 10
832.4422220333731
 20
472.1479112836379
 30
0.0
 11
832.4422220333731
 21
476.8084793947184
 31
0.0
  0
LINE
  5
1C9
330
1F
100
AcDbEntity
  8
0
 48
4.0
370
    13
100
AcDbLine
 10
836.0422220333729
 20
471.6679112836378
 30
0.0
 11
831.9622220333732
 21
471.6679112836378
 31
0.0
  0
LINE
  5
1CA
330
1F
100
AcDbEntity
  8
0
 48
4.0
370
    13
100
AcDbLine
 10
840.2422220333731
 20
480.8643846178884
 30
0.0
 11
837.3022220333732
 21
480.8643846178884
 31
0.0
  0
LINE
  5
1CB
330
1F
100
AcDbEntity
  8
0
 48
4.0
370
    13
100
AcDbLine
 10
840.2422220333731
 20
481.3443846178884
 30
0.0
 11
831.9622220333732
 21
481.3443846178883
 31
0.0
  0
LWPOLYLINE
  5
1CC
102
{ACAD_REACTORS
330
219
102
}
330
1F
100
AcDbEntity
  8
0
370
    13
100
AcDbPolyline
 90
       18
 70
     0
 43
0.0
 10
836.3022220333732
 20
453.3484793947187
 10
848.3022220333731
 20
453.3484793947187
 10
848.3022220333731
 20
452.7484793947187
 10
853.7022220333732
 20
452.7484793947187
 10
853.7022220333732
 20
449.7484793947187
 10
865.1022220333732
 20
449.7484793947187
 10
865.1022220333732
 20
444.3484793947186
 10
878.0622220333732
 20
444.3484793947186
 10
878.0622220333732
 20
460.9084793947186
 10
868.4622220333732
 20
460.9084793947186
 10
868.4622220333732
 20
468.7084793947186
 10
866.0622220333733
 20
468.7084793947186
 10
866.0622220333733
 20
480.7084793947186
 10
848.3022220333733
 20
480.7084793947186
 10
848.3022220333733
 20
476.8084793947187
 10
841.8972421010552
 20
476.8084793947184
 10
836.3022220333732
 20
471.200034323005
 10
836.3022220333732
 20
453.3484793947187
  0
LWPOLYLINE
  5
1CD
102
{ACAD_REACTORS
330
219
102
}
330
1F
100
AcDbEntity
  8
0
370
    13
100
AcDbPolyline
 90
       20
 70
     0
 43
0.0
 10
837.0322220333733
 20
454.0784793947187
 10
849.0322220333732
 20
454.0784793947187
 10
849.0322220333732
 20
453.4784793947187
 10
854.4322220333731
 20
453.4784793947187
 10
854.4322220333731
 20
450.4784793947187
 10
865.9322220333733
 20
450.4784793947187
 10
865.9322220333733
 20
445.0784793947187
 10
877.3322220333731
 20
445.0784793947187
 10
877.3322220333731
 20
460.1784793947186
 10
867.7322220333733
 20
460.1784793947186
 10
867.7322220333733
 20
467.9784793947186
 10
865.3322220333732
 20
467.9784793947186
 10
865.3322220333732
 20
479.9784793947186
 10
849.0322220333734
 20
479.9784793947186
 10
849.0322220333734
 20
476.0784793947186
 10
842.3996180015878
 20
476.0784793947185
 10
842.052504794762
 20
475.946101254506
 10
837.166042626408
 20
471.0462098858852
 10
837.0322220333733
 20
470.6976584224727
 10
837.0322220333733
 20
454.0784793947187
  0
HATCH
  5
219
330
1F
100
AcDbEntity
  8
0
100
AcDbHatch
 10
0.0
 20
0.0
 30
0.0
210
0.0
220
0.0
230
1.0
  2
SOLID
 70
     1
 71
     1
 91
       11
 92
        7
 72
     0
 73
     1
 93
       20
 10
866.0622220333729
 20
480.7084793947185
 10
848.3022220333733
 20
480.7084793947185
 10
848.3022220333733
 20
476.8084793947187
 10
841.8972421010552
 20
476.8084793947184
 10
836.302222033373
 20
471.2000343230049
 10
836.302222033373
 20
453.3484793947186
 10
848.3022220333731
 20
453.3484793947187
 10
848.3022220333729
 20
452.7484793947186
 10
853.7022220333732
 20
452.7484793947188
 10
853.7022220333733
 20
449.7484793947187
 10
865.1022220333732
 20
449.7484793947188
 10
865.1022220333732
 20
444.3484793947186
 10
871.3219682665211
 20
444.3484793947187
 10
871.5822220333732
 20
444.6534793947189
 10
871.8424758002253
 20
444.3484793947187
 10
878.0622220333732
 20
444.3484793947186
 10
878.0622220333732
 20
460.9084793947186
 10
868.4622220333734
 20
460.9084793947187
 10
868.4622220333732
 20
468.7084793947187
 10
866.0622220333731
 20
468.7084793947186
 97
        3
330
1CC
330
19A
330
184
 92
       22
 72
     0
 73
     1
 93
       19
 10
865.3322220333732
 20
479.9784793947186
 10
865.3322220333732
 20
467.9784793947186
 10
867.7322220333733
 20
467.9784793947185
 10
867.7322220333733
 20
460.1784793947185
 10
877.3322220333731
 20
460.1784793947185
 10
877.3322220333731
 20
445.0784793947187
 10
865.9322220333733
 20
445.0784793947186
 10
865.9322220333733
 20
450.4784793947187
 10
854.4322220333731
 20
450.4784793947187
 10
854.4322220333731
 20
453.4784793947188
 10
849.032222033373
 20
453.4784793947186
 10
849.0322220333732
 20
454.0784793947188
 10
837.0322220333735
 20
454.0784793947187
 10
837.0322220333733
 20
470.6976584224726
 10
837.1660426264082
 20
471.0462098858853
 10
842.052504794762
 20
475.946101254506
 10
842.3996180015878
 20
476.0784793947186
 10
849.0322220333734
 20
476.0784793947186
 10
849.0322220333734
 20
479.9784793947186
 97
        1
330
1CD
 92
        7
 72
     0
 73
     1
 93
        4
 10
862.9027035655878
 20
441.8634434706095
 10
862.5027035655877
 20
441.8634434706095
 10
862.5027035655877
 20
441.4634434706094
 10
862.9027035655878
 20
441.4634434706094
 97
        1
330
199
 92
       22
 72
     0
 73
     1
 93
        4
 10
868.1822220333732
 20
474.4484793947187
 10
867.7822220333732
 20
474.4484793947188
 10
867.7822220333734
 20
474.0484793947187
 10
868.1822220333732
 20
474.0484793947187
 97
        1
330
1A6
 92
       23
 72
     0
 73
     1
 93
        4
 10
868.1822220333733
 20
480.4284793947187
 10
867.7822220333732
 20
480.4284793947187
 10
867.7822220333732
 20
480.0284793947185
 10
868.1822220333732
 20
480.0284793947185
 97
        1
330
1A5
 92
       22
 72
     0
 73
     1
 93
        4
 10
840.1491164701479
 20
476.2084793947201
 10
839.7491164701477
 20
476.2084793947201
 10
839.7491164701476
 20
475.8084793947199
 10
840.1491164701477
 20
475.80847939472
 97
        1
330
1A3
 92
        7
 72
     0
 73
     1
 93
        4
 10
836.002222033373
 20
472.1079112836378
 10
835.6022220333729
 20
472.1079112836377
 10
835.6022220333732
 20
471.7079112836377
 10
836.002222033373
 20
471.7079112836379
 97
        1
330
1A2
 92
        7
 72
     0
 73
     1
 93
        4
 10
832.4022220333731
 20
472.107911283638
 10
832.0022220333731
 20
472.1079112836378
 10
832.0022220333729
 20
471.707911283638
 10
832.4022220333731
 20
471.707911283638
 97
        1
330
19F
 92
        7
 72
     0
 73
     1
 93
        4
 10
832.4022220333732
 20
481.3043846178888
 10
832.0022220333731
 20
481.3043846178885
 10
832.0022220333731
 20
480.9043846178887
 10
832.4022220333731
 20
480.9043846178886
 97
        1
330
1A0
 92
        7
 72
     0
 73
     1
 93
        4
 10
840.202222033373
 20
481.3043846178884
 10
839.802222033373
 20
481.3043846178884
 10
839.8022220333734
 20
480.9043846178884
 10
840.202222033373
 20
480.9043846178884
 97
        1
330
1A1
 92
        7
 72
     0
 73
     1
 93
        4
 10
840.2022220333732
 20
485.4873560508241
 10
839.8022220333732
 20
485.4873560508242
 10
839.8022220333732
 20
485.0873560508241
 10
840.2022220333734
 20
485.0873560508241
 97
        1
330
166
 75
     0
 76
     1
 47
0.0792068317235845
 98
       11
 10
859.2147735690964
 20
480.3524835333951
 10
859.2147735690964
 20
480.3524835333951
 10
862.7861991535187
 20
441.6467694386824
 10
867.9473830661587
 20
474.147759838006
 10
868.0983185468308
 20
480.2057491752671
 10
840.0796132026293
 20
476.0118503489202
 10
835.8019611572549
 20
471.8372382692887
 10
832.2583448413137
 20
471.9384395748638
 10
832.2077224047921
 20
481.0972878786469
 10
840.0036774678724
 20
481.0972878786469
 10
840.0039270648971
 20
485.2727356533696
  0
ENDSEC
  0
SECTION
  2
OBJECTS
  0
DICTIONARY
  5
C
330
0
100
AcDbDictionary
281
     1
  3
ACAD_COLOR
350
6B
  3
ACAD_GROUP
350
D
  3
ACAD_LAYOUT
350
1A
  3
ACAD_MATERIAL
350
6A
  3
ACAD_MLINESTYLE
350
17
  3
ACAD_PLOTSETTINGS
350
19
  3
ACAD_PLOTSTYLENAME
350
E
  3
ACAD_TABLESTYLE
350
7E
  3
ACDBHEADERROUNDTRIPXREC
350
23B
  3
AcDbVariableDictionary
350
5E
  3
DWGPROPS
350
23A
  0
DICTIONARY
  5
EF
330
2
100
AcDbDictionary
280
     1
281
     1
  3
ACAD_LAYERSTATES
360
F0
  0
DICTIONARY
  5
21A
330
1F
100
AcDbDictionary
280
     1
281
     1
  3
ACAD_SORTENTS
360
21B
  0
DICTIONARY
  5
6B
102
{ACAD_REACTORS
330
C
102
}
330
C
100
AcDbDictionary
281
     1
  0
DICTIONARY
  5
D
102
{ACAD_REACTORS
330
C
102
}
330
C
100
AcDbDictionary
281
     1
  0
DICTIONARY
  5
1A
102
{ACAD_REACTORS
330
C
102
}
330
C
100
AcDbDictionary
281
     1
  3
Arkusz1
350
D3
  3
Arkusz2
350
D7
  3
Model
350
22
  0
DICTIONARY
  5
6A
102
{ACAD_REACTORS
330
C
102
}
330
C
100
AcDbDictionary
281
     1
  0
DICTIONARY
  5
17
102
{ACAD_REACTORS
330
C
102
}
330
C
100
AcDbDictionary
281
     1
  3
Standard
350
18
  0
DICTIONARY
  5
19
102
{ACAD_REACTORS
330
C
102
}
330
C
100
AcDbDictionary
281
     1
  0
ACDBDICTIONARYWDFLT
  5
E
102
{ACAD_REACTORS
330
C
102
}
330
C
100
AcDbDictionary
281
     1
  3
Normal
350
F
100
AcDbDictionaryWithDefault
340
F
  0
DICTIONARY
  5
7E
102
{ACAD_REACTORS
330
C
102
}
330
C
100
AcDbDictionary
281
     1
  3
Standard
350
7F
  0
DICTIONARY
  5
23B
102
{ACAD_REACTORS
330
C
102
}
330
C
100
AcDbDictionary
281
     1
  0
DICTIONARY
  5
5E
102
{ACAD_REACTORS
330
C
102
}
330
C
100
AcDbDictionary
281
     1
  3
CTABLESTYLE
350
84
  3
DIMASSOC
350
5F
  3
HIDETEXT
350
63
  3
PROJECTNAME
350
238
  0
XRECORD
  5
23A
102
{ACAD_REACTORS
330
C
102
}
330
C
100
AcDbXrecord
280
     1
  1
DWGPROPS COOKIE
  2

  3

  4

  6

  7

  8
Autodesk
  9

300
=
301
=
302
=
303
=
304
=
305
=
306
=
307
=
308
=
309
=
 40
0.0023640046296296
 41
2454423.490560798
 42
2454423.492924803
  1

 90
        0
  0
DICTIONARY
  5
F0
102
{ACAD_REACTORS
330
EF
102
}
330
EF
100
AcDbDictionary
281
     1
  0
SORTENTSTABLE
  5
21B
102
{ACAD_REACTORS
330
21A
102
}
330
21A
100
AcDbSortentsTable
330
1F
331
1B8
  5
1B9
331
196
  5
197
331
174
  5
175
331
1C9
  5
1CA
331
1A7
  5
1A8
331
185
  5
186
331
16B
  5
16C
331
1B6
  5
1B7
331
194
  5
195
331
172
  5
173
331
1C7
  5
1C8
331
1A5
  5
1A6
331
183
  5
184
331
169
  5
16A
331
1B4
  5
1B5
331
192
  5
193
331
170
  5
171
331
1C5
  5
1C6
331
1A3
  5
1A4
331
181
  5
182
331
167
  5
168
331
1B2
  5
1B3
331
190
  5
191
331
1C3
  5
1C4
331
1A1
  5
1A2
331
17F
  5
180
331
165
  5
165
331
1B0
  5
1B1
331
1C1
  5
1C2
331
19F
  5
1A0
331
17D
  5
17E
331
18E
  5
18F
331
163
  5
163
331
1BF
  5
1C0
331
19D
  5
19E
331
17B
  5
17C
331
1AE
  5
1AF
331
18C
  5
18D
331
1BD
  5
1BE
331
19B
  5
19C
331
179
  5
17A
331
1AC
  5
1AD
331
18A
  5
18B
331
1BB
  5
1BC
331
199
  5
19A
331
177
  5
178
331
1CC
  5
1CD
331
1AA
  5
1AB
331
188
  5
189
331
16E
  5
16F
331
219
  5
166
331
1B9
  5
1BA
331
197
  5
198
331
175
  5
176
331
1CA
  5
1CB
331
1A8
  5
1A9
331
186
  5
187
331
16C
  5
16D
331
1B7
  5
1B8
331
195
  5
196
331
173
  5
174
331
1C8
  5
1C9
331
1A6
  5
1A7
331
184
  5
185
331
16A
  5
16B
331
1B5
  5
1B6
331
193
  5
194
331
171
  5
172
331
1C6
  5
1C7
331
1A4
  5
1A5
331
182
  5
183
331
168
  5
169
331
1B3
  5
1B4
331
191
  5
192
331
1C4
  5
1C5
331
1A2
  5
1A3
331
180
  5
181
331
166
  5
167
331
1B1
  5
1B2
331
1C2
  5
1C3
331
1A0
  5
1A1
331
17E
  5
17F
331
18F
  5
190
331
164
  5
164
331
1C0
  5
1C1
331
19E
  5
19F
331
17C
  5
17D
331
1AF
  5
1B0
331
18D
  5
18E
331
1BE
  5
1BF
331
19C
  5
19D
331
17A
  5
17B
331
1AD
  5
1AE
331
18B
  5
18C
331
1BC
  5
1BD
331
19A
  5
19B
331
178
  5
179
331
1CD
  5
1CE
331
1AB
  5
1AC
331
189
  5
18A
331
16F
  5
170
331
1BA
  5
1BB
331
198
  5
199
331
176
  5
177
331
1CB
  5
1CC
331
1A9
  5
1AA
331
187
  5
188
331
16D
  5
16E
  0
LAYOUT
  5
D3
102
{ACAD_XDICTIONARY
360
23E
102
}
102
{ACAD_REACTORS
330
1A
102
}
330
1A
100
AcDbPlotSettings
  1

  2
C:\Documents and Settings\basas\Application Data\Autodesk\AutoCAD 2005\R16.1\enu\plotters\Default Windows System Printer.pc3
  4

  6

 40
0.0
 41
0.0
 42
0.0
 43
0.0
 44
0.0
 45
0.0
 46
0.0
 47
0.0
 48
0.0
 49
0.0
140
0.0
141
0.0
142
1.0
143
1.0
 70
   688
 72
     0
 73
     0
 74
     5
  7

 75
    16
147
1.0
148
0.0
149
0.0
100
AcDbLayout
  1
Arkusz1
 70
     1
 71
     1
 10
0.0
 20
0.0
 11
12.0
 21
9.0
 12
0.0
 22
0.0
 32
0.0
 14
0.0
 24
0.0
 34
0.0
 15
0.0
 25
0.0
 35
0.0
146
0.0
 13
0.0
 23
0.0
 33
0.0
 16
1.0
 26
0.0
 36
0.0
 17
0.0
 27
1.0
 37
0.0
 76
     0
330
D2
  0
LAYOUT
  5
D7
102
{ACAD_XDICTIONARY
360
240
102
}
102
{ACAD_REACTORS
330
1A
102
}
330
1A
100
AcDbPlotSettings
  1

  2
C:\Documents and Settings\basas\Application Data\Autodesk\AutoCAD 2005\R16.1\enu\plotters\Default Windows System Printer.pc3
  4

  6

 40
0.0
 41
0.0
 42
0.0
 43
0.0
 44
0.0
 45
0.0
 46
0.0
 47
0.0
 48
0.0
 49
0.0
140
0.0
141
0.0
142
1.0
143
1.0
 70
   688
 72
     0
 73
     0
 74
     5
  7

 75
    16
147
1.0
148
0.0
149
0.0
100
AcDbLayout
  1
Arkusz2
 70
     1
 71
     2
 10
0.0
 20
0.0
 11
12.0
 21
9.0
 12
0.0
 22
0.0
 32
0.0
 14
0.0
 24
0.0
 34
0.0
 15
0.0
 25
0.0
 35
0.0
146
0.0
 13
0.0
 23
0.0
 33
0.0
 16
1.0
 26
0.0
 36
0.0
 17
0.0
 27
1.0
 37
0.0
 76
     0
330
D6
  0
LAYOUT
  5
22
102
{ACAD_XDICTIONARY
360
23C
102
}
102
{ACAD_REACTORS
330
1A
102
}
330
1A
100
AcDbPlotSettings
  1

  2
none_device
  4
ISO_A4_(210.00_x_297.00_MM)
  6

 40
7.5
 41
20.0
 42
7.5
 43
20.0
 44
210.0
 45
297.0
 46
11.54999923706054
 47
-13.65000009536743
 48
0.0
 49
0.0
140
0.0
141
0.0
142
1.0
143
8.704084754739808
 70
 11952
 72
     1
 73
     0
 74
     0
  7

 75
     0
147
0.1148885871608098
148
0.0
149
0.0
100
AcDbLayout
  1
Model
 70
     1
 71
     0
 10
0.0
 20
0.0
 11
12.0
 21
9.0
 12
0.0
 22
0.0
 32
0.0
 14
0.0
 24
0.0
 34
0.0
 15
0.0
 25
0.0
 35
0.0
146
0.0
 13
0.0
 23
0.0
 33
0.0
 16
1.0
 26
0.0
 36
0.0
 17
0.0
 27
1.0
 37
0.0
 76
     0
330
1F
1001
ACAD_PSEXT
1000
None
1000
None
1000
Not applicable
1000
The layout will not be plotted unless a new plotter configuration name is selected.
1070
     0
  0
MLINESTYLE
  5
18
102
{ACAD_REACTORS
330
17
102
}
330
17
100
AcDbMlineStyle
  2
STANDARD
 70
     0
  3

 62
   256
 51
90.0
 52
90.0
 71
     2
 49
0.5
 62
   256
  6
BYLAYER
 49
-0.5
 62
   256
  6
BYLAYER
  0
ACDBPLACEHOLDER
  5
F
102
{ACAD_REACTORS
330
E
102
}
330
E
  0
TABLESTYLE
  5
7F
102
{ACAD_REACTORS
330
7E
102
}
330
7E
100
AcDbTableStyle
  3
Standard
 70
     0
 71
     0
 40
1.5
 41
1.5
280
     0
281
     0
  7
Standard
140
4.5
170
     2
 62
     0
 63
     7
283
     0
274
    -2
284
     1
 64
     0
275
    -2
285
     1
 65
     0
276
    -2
286
     1
 66
     0
277
    -2
287
     1
 67
     0
278
    -2
288
     1
 68
     0
279
    -2
289
     1
 69
     0
  7
Standard
140
6.0
170
     5
 62
     0
 63
     7
283
     0
274
    -2
284
     1
 64
     0
275
    -2
285
     1
 65
     0
276
    -2
286
     1
 66
     0
277
    -2
287
     1
 67
     0
278
    -2
288
     1
 68
     0
279
    -2
289
     1
 69
     0
  7
Standard
140
4.5
170
     5
 62
     0
 63
     7
283
     0
274
    -2
284
     1
 64
     0
275
    -2
285
     1
 65
     0
276
    -2
286
     1
 66
     0
277
    -2
287
     1
 67
     0
278
    -2
288
     1
 68
     0
279
    -2
289
     1
 69
     0
  0
DICTIONARYVAR
  5
84
102
{ACAD_REACTORS
330
5E
102
}
330
5E
100
DictionaryVariables
280
     0
  1
STANDARD
  0
DICTIONARYVAR
  5
5F
102
{ACAD_REACTORS
330
5E
102
}
330
5E
100
DictionaryVariables
280
     0
  1
2
  0
DICTIONARYVAR
  5
63
102
{ACAD_REACTORS
330
5E
102
}
330
5E
100
DictionaryVariables
280
     0
  1
1
  0
DICTIONARYVAR
  5
238
102
{ACAD_REACTORS
330
5E
102
}
330
5E
100
DictionaryVariables
280
     0
  1

  0
DICTIONARY
  5
23E
330
D3
100
AcDbDictionary
280
     1
281
     1
  3
ACAD_XREC_ROUNDTRIP
360
23F
  0
DICTIONARY
  5
240
330
D7
100
AcDbDictionary
280
     1
281
     1
  3
ACAD_XREC_ROUNDTRIP
360
241
  0
DICTIONARY
  5
23C
330
22
100
AcDbDictionary
280
     1
281
     1
  3
ACAD_XREC_ROUNDTRIP
360
23D
  0
XRECORD
  5
23F
102
{ACAD_REACTORS
330
23E
102
}
330
23E
100
AcDbXrecord
280
     1
102
SHADEPLOT
 70
     0
102
SHADEPLOTRESLEVEL
 70
     2
102
SHADEPLOTCUSTOMDPI
 70
   300
  0
XRECORD
  5
241
102
{ACAD_REACTORS
330
240
102
}
330
240
100
AcDbXrecord
280
     1
102
SHADEPLOT
 70
     0
102
SHADEPLOTRESLEVEL
 70
     2
102
SHADEPLOTCUSTOMDPI
 70
   300
  0
XRECORD
  5
23D
102
{ACAD_REACTORS
330
23C
102
}
330
23C
100
AcDbXrecord
280
     1
102
SHADEPLOT
 70
     0
102
SHADEPLOTRESLEVEL
 70
     2
102
SHADEPLOTCUSTOMDPI
 70
   300
  0
ENDSEC
  0
EOF
